foto de Legião Urbana

Tempo Perdido » Legião Urbana

Legi?o Urbana


INTRO: O BAIXO S? ENTRA QUANDO RENATO COME?A A CANTAR 

VERSO:
TODOS OS DIAS ....
G|------------------------------------------------------------------------|
D|------------------------------------------------------------------------|
A|3-3-3-3-3-3----0-0-0-0-0-0--2-2-2-2-2-2------------------------|
E|--------------------------------------------------0-0-0-0-0-0-0------|

VARIA??O:
 E T?O SERIO
G|------------------------------------------------------------------------|
D|----------2/3/2--0----------------------------------------------------|
A|3-3-3---------------0-0-0-0-----------------------------------------|
E|------------------------------------------------------------------------|

NA PARTE: SELVAGEM
G|--------------------------------------------|
D|--------------------------------------------|   
A|2-2-2-2-2-2------------------------------|               3X
E|------------------0-0-0-0-0-0-------------|

NO SOLO :
G|-----------------------------------------------|
D|-----------------------------------------------|
A|----------5-7-5-7----------------------------|       3X
E|0-0-0-0---------------------------------------|

VERSO
VEJA O SOL DESSA MANH? T?O LINDA....
G|-----------------------------------------------------------------------|
D|-----------------------------------------------------------------------|
A|-3-3-3-3-3-3--0-0-0-0-0-0--2-2-2-2-2-2------------------------|
E|----------------------------------------------------0-0-0-0-0-0-0---|

REPETE A VARIA??O 
ME ABRA?A FORTE........
G|-------------------------------------------------------------------------------------------------------------|
D|-------2/3/2-0---------------------------------------------------------------------------------------------|
A|3-3-3----------------0-0-0---2-2-2-2-2-2---------------------3-3-3-3-3-3---0-0-0-0-0-0-0-0------|
E-------------------------------------------------0-0-0-0-0-0-0---------------------------------------------|

NA PARTE TEMOS NOSSO PR?PRIO TEMPO............ 
G|-------------------------------------|
D|------------------------------------|
A|2-2-2-2-2-2----------------------|  3X
E|----------------0-0-0-0-0-0-0-----|

NA PARTE N?O TENHO MEDO.....
G|-------------------------------------------------------------------|
D|-------------------------------------------------------------------|
A|-3-3-3-3-3--0-0-0-0-0-0--2-2-2-2-2-2-----------------------|
E|-----------------------------------------------0-0-0-0-0-0-0-----|

NA PARTE O QUE FOI ESCONDIDO.........
G|----------------------------------------------------------|
D|--------2/3/2-0-----------------------------------------|
A|3-3-3-----------0-0-0---2-2-2-2-2-2-----------------|
E|--------------------------------------------0-0-0-0-0-0-|

NEM FOI TEMPO PERDIDO 
G|-----------------------------------------------------------|
D|------2/3/2-0--------------------------------------------|
A|3-3-3---------0-0-0-------------------------------------|
E|------------------------------------------------------------|

SOMOS T?O JOVENS 
G|--------------------------------------------------------------------------------------------------|
D|-------------------------------------------------------------------------------------------------|
A|--------------5-7-5-7-------2-2-2-2-2-2--------------------2-2-2-2-2-2-------------------|
E|0-0-0-0-0-0--------------------------------0-0-0-0-0-0-0-------------------0-0-0-0-0-0--|

REPETE O SOLO 

VALEU ESSA M?SICA E F?CIL BASTA ESCUTA E PRONTO 
VIDA LONGA AO LEGI?O URBANA 

COMENTÁRIOS

[Fechar]